Jeffrey Lee Pierce: "Go Tell The Mountain" [written by Jeffrey Lee Pierce]
(from the "Ramblin Jeffrey Lee" album)


 
intro: 8x E/Esus4 as shown below, first 4x guitar and drums only

-----------------------
-----------------------
-----2p1--2-----------
--------22-----------
----------2---------
--0----------3-2-0--

E/Esus4
I hate to see that evening sun go down
A7                                 E/Esus4
I hate to see that evening sun go down
B7
in the freezing rain
A7                 E/Esus4
I move out of the town


Fear walkin' here, fear walkin' by my side
fear walkin' here, fear walkin' by my side
jinx follow me
way up the mountainside


end of verse:	chorus:
   E/Esus4       E       A                E
------------------------------------------------
------------------------------------------------
-2p1---2------------1--1h2-2-2p0h2---2p0--------
-----2-2---------2-------2-2-2p0h2---2p0--2--2--
-------2---------2------------------------2--2--
----------3--2----------------------------------
                Go tell the mountain
                Go tell the mountain
                Go tell the mountain
                Go tell the mountain


instrumental: 10x E/Esus4


I might never see the sun rise east again
I might never see the sun rise east again
in your turning sleep
don't forget I was your friend


	        Go Tell the Mountain
   		Go Tell the Mountain
 	        Go Tell the Mountain
	        Go Tell the Mountain


instrumental: extended guitar solo on 38x E/Esus4

end:          E7 and 1x basic E/Esus4 riff

Lyrics and guitar tabs